  0
SECTION
  2
HEADER
  9
$ACADVER
  1
AC1009
  9
$INSBASE
 10
107.9814546393462
 20
201.2334156225589
 30
0.0
  9
$EXTMIN
 10
-327.7312210223927
 20
-86.13559670918061
 30
0.0
  9
$EXTMAX
 10
139.3711102705011
 20
269.8256478284237
 30
0.0
  9
$LIMMIN
 10
0.0
 20
0.0
  9
$LIMMAX
 10
420.0
 20
297.0
  9
$ORTHOMODE
 70
     1
  9
$REGENMODE
 70
     1
  9
$FILLMODE
 70
     1
  9
$QTEXTMODE
 70
     0
  9
$MIRRTEXT
 70
     0
  9
$DRAGMODE
 70
     2
  9
$LTSCALE
 40
1.0
  9
$OSMODE
 70
     0
  9
$ATTMODE
 70
     1
  9
$TEXTSIZE
 40
3.5
  9
$TRACEWID
 40
0.1
  9
$TEXTSTYLE
  7
STANDARD
  9
$CLAYER
  8
0
  9
$CELTYPE
  6
BYLAYER
  9
$CECOLOR
 62
   256
  9
$DIMSCALE
 40
1.0
  9
$DIMASZ
 40
2.5
  9
$DIMEXO
 40
1.0
  9
$DIMDLI
 40
8.0
  9
$DIMRND
 40
0.0
  9
$DIMDLE
 40
0.0
  9
$DIMEXE
 40
2.0
  9
$DIMTP
 40
0.1
  9
$DIMTM
 40
0.1
  9
$DIMTXT
 40
3.5
  9
$DIMCEN
 40
2.0
  9
$DIMTSZ
 40
0.0
  9
$DIMTOL
 70
     0
  9
$DIMLIM
 70
     0
  9
$DIMTIH
 70
     0
  9
$DIMTOH
 70
     0
  9
$DIMSE1
 70
     0
  9
$DIMSE2
 70
     0
  9
$DIMTAD
 70
     1
  9
$DIMZIN
 70
     8
  9
$DIMBLK
  1

  9
$DIMASO
 70
     1
  9
$DIMSHO
 70
     1
  9
$DIMPOST
  1

  9
$DIMAPOST
  1

  9
$DIMALT
 70
     0
  9
$DIMALTD
 70
     2
  9
$DIMALTF
 40
25.39999999999999
  9
$DIMLFAC
 40
1.0
  9
$DIMTOFL
 70
     1
  9
$DIMTVP
 40
0.0
  9
$DIMTIX
 70
     0
  9
$DIMSOXD
 70
     0
  9
$DIMSAH
 70
     0
  9
$DIMBLK1
  1

  9
$DIMBLK2
  1

  9
$DIMSTYLE
  2
GEN-ISO
  9
$DIMCLRD
 70
   256
  9
$DIMCLRE
 70
   256
  9
$DIMCLRT
 70
     2
  9
$DIMTFAC
 40
0.71
  9
$DIMGAP
 40
1.5
  9
$LUNITS
 70
     2
  9
$LUPREC
 70
     3
  9
$SKETCHINC
 40
0.1
  9
$FILLETRAD
 40
2.5
  9
$AUNITS
 70
     0
  9
$AUPREC
 70
     1
  9
$MENU
  1

  9
$ELEVATION
 40
0.0
  9
$PELEVATION
 40
0.0
  9
$THICKNESS
 40
0.0
  9
$LIMCHECK
 70
     0
  9
$BLIPMODE
 70
     0
  9
$CHAMFERA
 40
2.5
  9
$CHAMFERB
 40
2.5
  9
$SKPOLY
 70
     1
  9
$TDCREATE
 40
2449605.464317476
  9
$TDUPDATE
 40
2449605.474675115
  9
$TDINDWG
 40
0.0102515046
  9
$TDUSRTIMER
 40
0.0102515046
  9
$USRTIMER
 70
     1
  9
$ANGBASE
 50
0.0
  9
$ANGDIR
 70
     0
  9
$PDMODE
 70
     3
  9
$PDSIZE
 40
0.0
  9
$PLINEWID
 40
0.0
  9
$COORDS
 70
     2
  9
$SPLFRAME
 70
     0
  9
$SPLINETYPE
 70
     6
  9
$SPLINESEGS
 70
     8
  9
$ATTDIA
 70
     1
  9
$ATTREQ
 70
     1
  9
$HANDLING
 70
     0
  9
$HANDSEED
  5
4974
  9
$SURFTAB1
 70
     6
  9
$SURFTAB2
 70
     6
  9
$SURFTYPE
 70
     6
  9
$SURFU
 70
     6
  9
$SURFV
 70
     6
  9
$UCSNAME
  2

  9
$UCSORG
 10
0.0
 20
0.0
 30
0.0
  9
$UCSXDIR
 10
1.0
 20
0.0
 30
0.0
  9
$UCSYDIR
 10
0.0
 20
1.0
 30
0.0
  9
$PUCSNAME
  2

  9
$PUCSORG
 10
0.0
 20
0.0
 30
0.0
  9
$PUCSXDIR
 10
1.0
 20
0.0
 30
0.0
  9
$PUCSYDIR
 10
0.0
 20
1.0
 30
0.0
  9
$USERI1
 70
     0
  9
$USERI2
 70
     3
  9
$USERI3
 70
    15
  9
$USERI4
 70
     0
  9
$USERI5
 70
     0
  9
$USERR1
 40
1.0
  9
$USERR2
 40
1.0
  9
$USERR3
 40
0.0
  9
$USERR4
 40
1.0
  9
$USERR5
 40
0.0
  9
$WORLDVIEW
 70
     5
  9
$SHADEDGE
 70
     3
  9
$SHADEDIF
 70
    70
  9
$TILEMODE
 70
     1
  9
$MAXACTVP
 70
     4
  9
$PINSBASE
 10
0.0
 20
0.0
 30
0.0
  9
$PLIMCHECK
 70
     0
  9
$PEXTMIN
 10
1.000000000000000E+20
 20
1.000000000000000E+20
 30
1.000000000000000E+20
  9
$PEXTMAX
 10
-1.000000000000000E+20
 20
-1.000000000000000E+20
 30
-1.000000000000000E+20
  9
$PLIMMIN
 10
0.0
 20
0.0
  9
$PLIMMAX
 10
12.0
 20
12.0
  9
$UNITMODE
 70
     0
  9
$VISRETAIN
 70
     0
  9
$PLINEGEN
 70
     0
  9
$PSLTSCALE
 70
     0
  9
$TREEDEPTH
 70
  3020
  9
$DWGCODEPAGE
  3
undefined
  0
ENDSEC
  0
SECTION
  2
TABLES
  0
TABLE
  2
VPORT
 70
     2
  0
VPORT
  2
*ACTIVE
 70
     0
 10
0.0
 20
0.0
 11
1.0
 21
1.0
 12
129.2049643762964
 22
205.3933364556943
 13
0.0
 23
0.0
 14
1.0
 24
1.0
 15
10.0
 25
10.0
 16
0.0
 26
0.0
 36
1.0
 17
0.0
 27
0.0
 37
0.0
 40
166.1135522620163
 41
1.275675675675675
 42
50.0
 43
0.0
 44
0.0
 50
0.0
 51
0.0
 71
     0
 72
   100
 73
     1
 74
     0
 75
     0
 76
     0
 77
     0
 78
     0
  0
ENDTAB
  0
TABLE
  2
LTYPE
 70
    15
  0
LTYPE
  2
CONTINUOUS
 70
    64
  3
Solid line
 72
    65
 73
     0
 40
0.0
  0
LTYPE
  2
GEN4A
 70
    64
  3
_____ . . _____ . . _____ . . ____ .. ____
 72
    65
 73
     6
 40
17.5
 49
10.0
 49
-2.5
 49
0.0
 49
-2.5
 49
0.0
 49
-2.5
  0
LTYPE
  2
GEN7
 70
    64
  3
____ . ____ . ____ . ____ . ____ . ____ . ____
 72
    65
 73
     4
 40
15.0
 49
10.0
 49
-2.5
 49
0.0
 49
-2.5
  0
LTYPE
  2
GEN7A
 70
    64
  3
__ . __ . __
 72
    65
 73
     4
 40
7.5
 49
5.0
 49
-1.25
 49
0.0
 49
-1.25
  0
LTYPE
  2
GEN3A
 70
    64
  3
 - - - - -
 72
    65
 73
     2
 40
3.1
 49
2.5
 49
-0.6
  0
LTYPE
  2
GEN3
 70
    64
  3
-- -- -- -- -- -- -- -- -- -- -- -- -- -- --
 72
    65
 73
     2
 40
6.25
 49
5.0
 49
-1.25
  0
LTYPE
  2
GEN
 70
    64
  3
----------------------
 72
    65
 73
     2
 40
10000000000.0
 49
0.0
 49
10000000000.0
  0
LTYPE
  2
ITEM-STRICH
 70
     0
  3
 - - - - -
 72
    65
 73
     2
 40
1.5
 49
1.2
 49
-0.3
  0
LTYPE
  2
ITEM-STRICHGR
 70
     0
  3
 -- -- -- -- --
 72
    65
 73
     2
 40
6.25
 49
5.0
 49
-1.25
  0
LTYPE
  2
ITEM-STRICHPUNKT
 70
     0
  3
__ . __ . __
 72
    65
 73
     4
 40
3.599999999999999
 49
2.399999999999999
 49
-0.6
 49
0.0
 49
-0.6
  0
LTYPE
  2
ITEM-STRICHPGR
 70
     0
  3
____ . ____ . ____ . ____ . ____ . ____ . ____
 72
    65
 73
     4
 40
15.0
 49
10.0
 49
-2.5
 49
0.0
 49
-2.5
  0
LTYPE
  2
AIT$STRICH
 70
    64
  3
 - - - - -
 72
    65
 73
     2
 40
1.5
 49
1.2
 49
-0.3
  0
LTYPE
  2
AIT$STRICHGR
 70
    64
  3
 -- -- -- -- --
 72
    65
 73
     2
 40
6.25
 49
5.0
 49
-1.25
  0
LTYPE
  2
AIT$STRICHPUNKT
 70
    64
  3
__ . __ . __
 72
    65
 73
     4
 40
3.599999999999999
 49
2.399999999999999
 49
-0.6
 49
0.0
 49
-0.6
  0
LTYPE
  2
AIT$STRICHPGR
 70
    64
  3
____ . ____ . ____ . ____ . ____ . ____ . ____
 72
    65
 73
     4
 40
15.0
 49
10.0
 49
-2.5
 49
0.0
 49
-2.5
  0
ENDTAB
  0
TABLE
  2
LAYER
 70
    48
  0
LAYER
  2
0
 70
    64
 62
     7
  6
CONTINUOUS
  0
LAYER
  2
ITEM_50
 70
    64
 62
     7
  6
CONTINUOUS
  0
LAYER
  2
ITEM_HILFE
 70
    64
 62
     3
  6
CONTINUOUS
  0
LAYER
  2
4AN
 70
     0
 62
     3
  6
GEN4A
  0
LAYER
  2
2AN
 70
     0
 62
     7
  6
GEN7
  0
LAYER
  2
7AN
 70
     0
 62
     4
  6
GEN7A
  0
LAYER
  2
3AN
 70
     0
 62
     6
  6
GEN3A
  0
LAYER
  2
8N
 70
     0
 62
     1
  6
CONTINUOUS
  0
LAYER
  2
7N
 70
     0
 62
     4
  6
GEN7
  0
LAYER
  2
6N
 70
     0
 62
     2
  6
CONTINUOUS
  0
LAYER
  2
5N
 70
     0
 62
     3
  6
CONTINUOUS
  0
LAYER
  2
4N
 70
     0
 62
     3
  6
CONTINUOUS
  0
LAYER
  2
3N
 70
     0
 62
     6
  6
GEN3
  0
LAYER
  2
2N
 70
     0
 62
     5
  6
CONTINUOUS
  0
LAYER
  2
1N
 70
     0
 62
     9
  6
CONTINUOUS
  0
LAYER
  2
0N
 70
     0
 62
     7
  6
CONTINUOUS
  0
LAYER
  2
GENHATCH
 70
     0
 62
     8
  6
CONTINUOUS
  0
LAYER
  2
4A
 70
     0
 62
     3
  6
GEN4A
  0
LAYER
  2
2A
 70
     0
 62
     7
  6
GEN7
  0
LAYER
  2
7A
 70
     0
 62
     4
  6
GEN7A
  0
LAYER
  2
3A
 70
     0
 62
     6
  6
GEN3A
  0
LAYER
  2
8
 70
     0
 62
     1
  6
CONTINUOUS
  0
LAYER
  2
7
 70
     0
 62
     4
  6
GEN7
  0
LAYER
  2
6
 70
     0
 62
     2
  6
CONTINUOUS
  0
LAYER
  2
5
 70
     0
 62
     3
  6
CONTINUOUS
  0
LAYER
  2
4
 70
     0
 62
     3
  6
CONTINUOUS
  0
LAYER
  2
3
 70
     0
 62
     6
  6
GEN3
  0
LAYER
  2
2
 70
     0
 62
     5
  6
CONTINUOUS
  0
LAYER
  2
1
 70
     0
 62
     9
  6
CONTINUOUS
  0
LAYER
  2
RAHM2
 70
     0
 62
     3
  6
GEN
  0
LAYER
  2
RAHM3
 70
     0
 62
     7
  6
GEN
  0
LAYER
  2
RAHM5
 70
     0
 62
     7
  6
GEN
  0
LAYER
  2
KLIN
 70
     0
 62
     9
  6
GEN
  0
LAYER
  2
INFO
 70
     0
 62
     4
  6
GEN
  0
LAYER
  2
DEFPOINTS
 70
     0
 62
    -7
  6
GEN
  0
LAYER
  2
AIT$50
 70
     0
 62
     7
  6
CONTINUOUS
  0
LAYER
  2
AIT$35
 70
     0
 62
     2
  6
CONTINUOUS
  0
LAYER
  2
AIT$25
 70
     0
 62
     3
  6
CONTINUOUS
  0
LAYER
  2
AIT$HILFE
 70
    64
 62
     3
  6
CONTINUOUS
  0
LAYER
  2
AIT$INFO
 70
    64
 62
     4
  6
CONTINUOUS
  0
LAYER
  2
AIT$STP
 70
     0
 62
     4
  6
AIT$STRICHPUNKT
  0
LAYER
  2
AIT$STPG
 70
     0
 62
     4
  6
AIT$STRICHPGR
  0
LAYER
  2
AIT$GSTR
 70
     0
 62
     6
  6
AIT$STRICH
  0
LAYER
  2
AIT$GSTRG
 70
     0
 62
     6
  6
AIT$STRICHGR
  0
LAYER
  2
AIT$3D
 70
     0
 62
     7
  6
CONTINUOUS
  0
LAYER
  2
AIT$3D_HLF
 70
     0
 62
     3
  6
CONTINUOUS
  0
LAYER
  2
AIT$3D_DET
 70
     1
 62
     2
  6
CONTINUOUS
  0
LAYER
  2
AIT$3D_BEM
 70
     0
 62
     2
  6
CONTINUOUS
  0
ENDTAB
  0
TABLE
  2
STYLE
 70
     9
  0
STYLE
  2
STANDARD
 70
     0
 40
0.0
 41
1.0
 50
0.0
 71
     0
 42
3.5
  3
GENISO
  4

  0
STYLE
  2
GENPRESET
 70
    64
 40
0.0
 41
1.0
 50
0.0
 71
     0
 42
3.5
  3
GENPRESE
  4

  0
STYLE
  2
1
 70
     0
 40
0.0
 41
1.0
 50
0.0
 71
     0
 42
3.5
  3
TXT8
  4

  0
STYLE
  2
2
 70
     0
 40
0.0
 41
1.0
 50
0.0
 71
     0
 42
3.5
  3
MONOTXT8
  4

  0
STYLE
  2
3
 70
     0
 40
0.0
 41
0.8
 50
0.0
 71
     0
 42
3.5
  3
SIMPLEX8
  4

  0
STYLE
  2
4
 70
     0
 40
0.0
 41
1.0
 50
0.0
 71
     0
 42
3.5
  3
ITALIC8
  4

  0
STYLE
  2
AIT$BEM-L
 70
     0
 40
0.0
 41
1.0
 50
29.99999999999999
 71
     0
 42
3.5
  3
iso8
  4

  0
STYLE
  2
AIT$BEM-R
 70
     0
 40
0.0
 41
1.0
 50
330.0
 71
     0
 42
3.5
  3
iso8
  4

  0
STYLE
  2
AIT$TSTIL
 70
    64
 40
0.0
 41
0.8
 50
0.0
 71
     0
 42
3.5
  3
iso8
  4

  0
ENDTAB
  0
TABLE
  2
VIEW
 70
     0
  0
ENDTAB
  0
TABLE
  2
UCS
 70
     0
  0
ENDTAB
  0
TABLE
  2
APPID
 70
     2
  0
APPID
  2
ACAD
 70
    64
  0
ENDTAB
  0
TABLE
  2
DIMSTYLE
 70
    12
  0
DIMSTYLE
  2
GEN-ISO
 70
     0
  3

  4

  5

  6

  7

 40
1.0
 41
2.5
 42
1.0
 43
8.0
 44
2.0
 45
0.0
 46
0.0
 47
0.1
 48
0.1
140
3.5
141
2.0
142
0.0
143
25.39999999999999
144
1.0
145
0.0
146
0.71
147
1.5
 71
     0
 72
     0
 73
     0
 74
     0
 75
     0
 76
     0
 77
     1
 78
     8
170
     0
171
     2
172
     1
173
     0
174
     0
175
     0
176
   256
177
   256
178
     2
  0
DIMSTYLE
  2
GEN-ISO-AXE-H
 70
     0
  3

  4

  5

  6

  7

 40
1.0
 41
2.5
 42
1.0
 43
8.0
 44
2.0
 45
0.0
 46
0.0
 47
0.1
 48
0.1
140
3.5
141
2.0
142
0.0
143
25.39999999999999
144
2.0
145
0.0
146
0.71
147
1.5
 71
     0
 72
     0
 73
     0
 74
     0
 75
     1
 76
     1
 77
     1
 78
     8
170
     0
171
     2
172
     1
173
     1
174
     0
175
     0
176
   256
177
   256
178
     2
  0
DIMSTYLE
  2
GEN-ISO-AXE-F
 70
     0
  3

  4

  5

  6

  7

 40
1.0
 41
2.5
 42
1.0
 43
8.0
 44
2.0
 45
0.0
 46
0.0
 47
0.1
 48
0.1
140
3.5
141
2.0
142
0.0
143
25.39999999999999
144
1.0
145
0.0
146
0.71
147
1.5
 71
     0
 72
     0
 73
     0
 74
     0
 75
     1
 76
     1
 77
     1
 78
     8
170
     0
171
     2
172
     1
173
     0
174
     0
175
     0
176
   256
177
   256
178
     2
  0
DIMSTYLE
  2
GEN-ISO-POS
 70
     0
  3

  4

  5

  6

  7

 40
1.0
 41
2.5
 42
1.0
 43
8.0
 44
2.0
 45
0.0
 46
0.0
 47
0.1
 48
0.1
140
5.0
141
2.0
142
0.0
143
25.39999999999999
144
1.0
145
0.0
146
0.71
147
1.5
 71
     0
 72
     0
 73
     0
 74
     0
 75
     0
 76
     0
 77
     1
 78
     8
170
     0
171
     2
172
     1
173
     0
174
     0
175
     0
176
   256
177
   256
178
     2
  0
DIMSTYLE
  2
GEN-ISO-CIR
 70
     0
  3

  4

  5

  6

  7

 40
1.0
 41
2.5
 42
1.0
 43
8.0
 44
2.0
 45
0.0
 46
0.0
 47
0.1
 48
0.1
140
3.5
141
2.0
142
0.0
143
25.39999999999999
144
1.0
145
0.0
146
0.71
147
1.5
 71
     0
 72
     0
 73
     0
 74
     0
 75
     0
 76
     0
 77
     1
 78
     8
170
     0
171
     2
172
     1
173
     0
174
     1
175
     0
176
   256
177
   256
178
     2
  0
DIMSTYLE
  2
GEN-ANSI
 70
     0
  3

  4

  5

  6

  7

 40
1.0
 41
0.1
 42
0.05
 43
0.3
 44
0.1
 45
0.0
 46
0.0
 47
0.1
 48
0.1
140
0.15
141
0.1
142
0.0
143
25.39999999999999
144
1.0
145
0.0
146
0.8
147
0.1
 71
     0
 72
     0
 73
     0
 74
     0
 75
     0
 76
     0
 77
     1
 78
     8
170
     0
171
     2
172
     1
173
     0
174
     0
175
     0
176
   256
177
   256
178
     2
  0
DIMSTYLE
  2
GEN-ANSI-POS
 70
     0
  3

  4

  5

  6

  7

 40
1.0
 41
0.1
 42
0.05
 43
0.4
 44
0.1
 45
0.0
 46
0.0
 47
0.1
 48
0.1
140
0.2
141
0.1
142
0.0
143
25.39999999999999
144
1.0
145
0.0
146
0.8
147
0.1
 71
     0
 72
     0
 73
     0
 74
     0
 75
     0
 76
     0
 77
     1
 78
     8
170
     0
171
     2
172
     1
173
     0
174
     0
175
     0
176
   256
177
   256
178
     2
  0
DIMSTYLE
  2
GEN-ANSI-CIR
 70
     0
  3

  4

  5

  6

  7

 40
1.0
 41
0.1
 42
0.05
 43
0.4
 44
0.1
 45
0.0
 46
0.0
 47
0.1
 48
0.1
140
0.15
141
0.1
142
0.0
143
25.39999999999999
144
1.0
145
0.0
146
0.8
147
0.1
 71
     0
 72
     0
 73
     0
 74
     0
 75
     0
 76
     0
 77
     0
 78
     8
170
     0
171
     2
172
     1
173
     0
174
     1
175
     0
176
   256
177
   256
178
     2
  0
DIMSTYLE
  2
GEN-ANSI-AXE-F
 70
     0
  3

  4

  5

  6

  7

 40
1.0
 41
0.1
 42
0.05
 43
0.3
 44
0.1
 45
0.0
 46
0.0
 47
0.1
 48
0.1
140
0.15
141
0.1
142
0.0
143
25.39999999999999
144
1.0
145
0.0
146
1.0
147
0.0
 71
     0
 72
     0
 73
     0
 74
     0
 75
     1
 76
     1
 77
     1
 78
     8
170
     0
171
     2
172
     1
173
     0
174
     0
175
     0
176
   256
177
   256
178
     2
  0
DIMSTYLE
  2
GEN-ANSI-AXE-H
 70
     0
  3

  4

  5

  6
GEN-AXE-H
  7

 40
1.0
 41
0.1
 42
0.05
 43
0.4
 44
0.1
 45
0.0
 46
0.0
 47
0.1
 48
0.1
140
0.15
141
0.1
142
0.0
143
25.39999999999999
144
2.0
145
0.0
146
1.0
147
0.0
 71
     0
 72
     0
 73
     0
 74
     0
 75
     1
 76
     1
 77
     0
 78
     8
170
     0
171
     2
172
     1
173
     1
174
     0
175
     0
176
   256
177
   256
178
     2
  0
DIMSTYLE
  2
GEN-ISO-ORD
 70
     0
  3

  4

  5

  6

  7

 40
1.0
 41
2.5
 42
1.0
 43
8.0
 44
2.0
 45
0.0
 46
0.0
 47
0.1
 48
0.1
140
3.5
141
2.0
142
0.0
143
25.39999999999999
144
1.0
145
0.0
146
0.71
147
1.5
 71
     0
 72
     0
 73
     0
 74
     0
 75
     0
 76
     0
 77
     0
 78
     8
170
     0
171
     2
172
     0
173
     0
174
     0
175
     0
176
   256
177
   256
178
     2
  0
DIMSTYLE
  2
GEN-ANSI-ORD
 70
     0
  3

  4

  5

  6

  7

 40
1.0
 41
0.1
 42
0.05
 43
0.4
 44
0.1
 45
0.0
 46
0.0
 47
0.1
 48
0.1
140
0.15
141
0.1
142
0.0
143
25.39999999999999
144
1.0
145
0.0
146
1.0
147
0.1
 71
     0
 72
     0
 73
     0
 74
     0
 75
     0
 76
     0
 77
     0
 78
     8
170
     0
171
     2
172
     0
173
     0
174
     0
175
     0
176
   256
177
   256
178
     2
  0
ENDTAB
  0
ENDSEC
  0
SECTION
  2
BLOCKS
  0
BLOCK
  8
0
  2
GENPRESE
 70
    66
 10
0.0
 20
0.0
 30
0.0
  3
GENPRESE
  0
ATTDEF
  8
0
 10
0.0
 20
0.0
 30
0.0
 40
3.5
  1
A3
  3
PAPER FORMAT
  2
GEN-KO2
 70
     0
  7
GENPRESET
  0
ATTDEF
  8
0
 10
0.0
 20
-5.0
 30
0.0
 40
3.5
  1
item
  3
SCHRIFTKOPF
  2
GEN-KO3
 70
     0
  7
GENPRESET
  0
ATTDEF
  8
0
 10
0.0
 20
-10.0
 30
0.0
 40
3.5
  1
15
  3
ZEITPERIODE SICHERN
  2
GENSI
 70
     0
  7
GENPRESET
  0
ATTDEF
  8
0
 10
0.0
 20
-15.0
 30
0.0
 40
3.5
  1

  3
NAME ZUM SICHERN
  2
GENSD
 70
     0
  7
GENPRESET
  0
ATTDEF
  8
0
 10
0.0679278917532429
 20
-19.93786241836124
 30
0.0
 40
3.5
  1
0
  3
INFOPKT=0/TEXT=1/NO=2
  2
GENIF
 70
     0
  7
GENPRESET
  0
ATTDEF
  8
0
 10
0.0339639458766215
 20
-24.96893120918062
 30
0.0
 40
3.5
  1
2
  3
HORIZ=1/JUSTI=2/KREIS=3
  2
GENPOSVAR
 70
     0
  7
GENPRESET
  0
ATTDEF
  8
0
 10
0.0339639458766215
 20
-29.96893120918062
 30
0.0
 40
3.5
  1
0
  3
POSILIN.KREIS=0/PFEIL=1
  2
GENPOSBLK
 70
     0
  7
GENPRESET
  0
ATTDEF
  8
0
 10
0.0339639458766215
 20
-34.96893120918062
 30
0.0
 40
3.5
  1
1
  3
INKREMENT POSINR.
  2
GENPOSINC
 70
     0
  7
GENPRESET
  0
ATTDEF
  8
0
 10
0.0339639458766215
 20
-39.96893120918062
 30
0.0
 40
3.5
  1
GEN-POS
  3
MASKE POSITIONLISTE
  2
GENPARPOS
 70
     0
  7
GENPRESET
  0
ATTDEF
  8
0
 10
0.0339639458766215
 20
-44.96893120918062
 30
0.0
 40
3.5
  1
GEN-SUM
  3
MASKE SUMMENLISTE
  2
GENPARSUM
 70
     0
  7
GENPRESET
  0
ATTDEF
  8
0
 10
0.0339639458766215
 20
-49.96893120918062
 30
0.0
 40
3.5
  1
CANONII
  3
STANDARDDRUCKER
  2
GENPARDRU
 70
     0
  7
GENPRESET
  0
ATTDEF
  8
0
 10
0.0339639458766215
 20
-54.96893120918062
 30
0.0
 40
3.5
  1

  3
LAYERGRUPPE NORMTEILE
  2
GENSTDLG
 70
     0
  7
GENPRESET
  0
ATTDEF
  8
0
 10
0.0339639458766215
 20
-59.96893120918062
 30
0.0
 40
3.5
  1
13
  3
FARBE DIALOG-FELDER
  2
GENCOLBK
 70
     0
  7
GENPRESET
  0
ATTDEF
  8
0
 10
0.0339639458766215
 20
-64.96893120918062
 30
0.0
 40
3.5
  1
4
  3
FARBE DIALOG-šBERSCHRIFT
  2
GENCOLTI
 70
     0
  7
GENPRESET
  0
ATTDEF
  8
0
 10
0.0339639458766215
 20
-69.96893120918062
 30
0.0
 40
3.5
  1
2
  3
FARBE DIALOG-TEXT
  2
GENCOLTX
 70
     0
  7
GENPRESET
  0
ATTDEF
  8
0
 10
0.0339639458766215
 20
-74.96893120918062
 30
0.0
 40
3.5
  1
edlin
  3
TEXTEDITOR
  2
GENEDITOR
 70
     0
  7
GENPRESET
  0
ATTDEF
  8
0
 10
0.0339639458766215
 20
-79.96893120918062
 30
0.0
 40
3.5
  1
M
  3
BEM INCH/METRISCH
  2
GENINCH
 70
     0
  7
GENPRESET
  0
ATTDEF
  8
0
 10
0.0339639458766215
 20
-84.96893120918062
 30
0.0
 40
3.5
  1
ISO
  3
SYMBOLE/BEM ISO/ANSI
  2
GENDIMSTIL
 70
     0
  7
GENPRESET
  0
ENDBLK
  8
0
  0
BLOCK
  8
0
  2
ACAD
 70
     0
 10
0.0
 20
0.0
 30
0.0
  3
ACAD
  0
INSERT
  8
0
 66
     1
  2
GENPRESE
 10
0.0
 20
0.0
 30
0.0
  0
ATTRIB
  8
0
 10
0.0
 20
0.0
 30
0.0
 40
3.5
  1
A3
  2
GEN-KO2
 70
     0
  7
GENPRESET
  0
ATTRIB
  8
0
 10
0.0
 20
-5.0
 30
0.0
 40
3.5
  1
item
  2
GEN-KO3
 70
     0
  7
GENPRESET
  0
ATTRIB
  8
0
 10
0.0
 20
-10.0
 30
0.0
 40
3.5
  1
15
  2
GENSI
 70
     0
  7
GENPRESET
  0
ATTRIB
  8
0
 10
0.0
 20
-15.0
 30
0.0
 40
3.5
  1

  2
GENSD
 70
     0
  7
GENPRESET
  0
ATTRIB
  8
0
 10
0.0679278917532429
 20
-19.93786241836124
 30
0.0
 40
3.5
  1
0
  2
GENIF
 70
     0
  7
GENPRESET
  0
ATTRIB
  8
0
 10
0.0339639458766215
 20
-24.96893120918062
 30
0.0
 40
3.5
  1
2
  2
GENPOSVAR
 70
     0
  7
GENPRESET
  0
ATTRIB
  8
0
 10
0.0339639458766215
 20
-29.96893120918062
 30
0.0
 40
3.5
  1
0
  2
GENPOSBLK
 70
     0
  7
GENPRESET
  0
ATTRIB
  8
0
 10
0.0339639458766215
 20
-34.96893120918062
 30
0.0
 40
3.5
  1
1
  2
GENPOSINC
 70
     0
  7
GENPRESET
  0
ATTRIB
  8
0
 10
0.0339639458766215
 20
-39.96893120918062
 30
0.0
 40
3.5
  1
GEN-POS
  2
GENPARPOS
 70
     0
  7
GENPRESET
  0
ATTRIB
  8
0
 10
0.0339639458766215
 20
-44.96893120918062
 30
0.0
 40
3.5
  1
GEN-SUM
  2
GENPARSUM
 70
     0
  7
GENPRESET
  0
ATTRIB
  8
0
 10
0.0339639458766215
 20
-49.96893120918062
 30
0.0
 40
3.5
  1
CANONII
  2
GENPARDRU
 70
     0
  7
GENPRESET
  0
ATTRIB
  8
0
 10
0.0339639458766215
 20
-54.96893120918062
 30
0.0
 40
3.5
  1

  2
GENSTDLG
 70
     0
  7
GENPRESET
  0
ATTRIB
  8
0
 10
0.0339639458766215
 20
-59.96893120918062
 30
0.0
 40
3.5
  1
13
  2
GENCOLBK
 70
     0
  7
GENPRESET
  0
ATTRIB
  8
0
 10
0.0339639458766215
 20
-64.96893120918062
 30
0.0
 40
3.5
  1
4
  2
GENCOLTI
 70
     0
  7
GENPRESET
  0
ATTRIB
  8
0
 10
0.0339639458766215
 20
-69.96893120918062
 30
0.0
 40
3.5
  1
2
  2
GENCOLTX
 70
     0
  7
GENPRESET
  0
ATTRIB
  8
0
 10
0.0339639458766215
 20
-74.96893120918062
 30
0.0
 40
3.5
  1
c:\dos\edit
  2
GENEDITOR
 70
     0
  7
GENPRESET
  0
ATTRIB
  8
0
 10
0.0339639458766215
 20
-79.96893120918062
 30
0.0
 40
3.5
  1
metric
  2
GENINCH
 70
     0
  7
GENPRESET
  0
ATTRIB
  8
0
 10
0.0339639458766215
 20
-84.96893120918062
 30
0.0
 40
3.5
  1
ISO
  2
GENDIMSTIL
 70
     0
  7
GENPRESET
  0
SEQEND
  8
0
  0
INSERT
  8
0
 66
     1
  2
AIT$MERK
 10
0.0
 20
0.0
 30
0.0
  0
ATTRIB
  8
AIT$HILFE
 10
0.8310912943111077
 20
-26.76290463692043
 30
0.0
 40
2.0
  1
genius11
  2
AIT$HAUTPMENUE
 70
     1
 41
0.8
  7
AIT$TSTIL
  0
ATTRIB
  8
AIT$HILFE
 10
0.8310912943111077
 20
-23.76290463692043
 30
0.0
 40
2.0
  1
1.0
  2
AIT$MASSTABSFAKTOR
 70
     1
 41
0.8
  7
AIT$TSTIL
  0
ATTRIB
  8
AIT$HILFE
 10
0.8310912943111077
 20
-20.76290463692043
 30
0.0
 40
2.0
  1
0
  2
AIT$LETZTE-POSITION
 70
     1
 41
0.8
  7
AIT$TSTIL
  0
ATTRIB
  8
AIT$HILFE
 10
0.8310912943111077
 20
-17.76290463692043
 30
0.0
 40
2.0
  1
0
  2
AIT$MERKER-4
 70
     1
 41
0.8
  7
AIT$TSTIL
  0
ATTRIB
  8
AIT$HILFE
 10
0.8310912943111077
 20
-14.76290463692043
 30
0.0
 40
2.0
  1
0
  2
AIT$MERKER-5
 70
     1
 41
0.8
  7
AIT$TSTIL
  0
ATTRIB
  8
AIT$HILFE
 10
0.8310912943111077
 20
-11.76290463692043
 30
0.0
 40
2.0
  1
1
  2
AIT$MERKER-6
 70
     1
 41
0.8
  7
AIT$TSTIL
  0
ATTRIB
  8
AIT$HILFE
 10
0.8310912943111077
 20
-8.762904636920433
 30
0.0
 40
2.0
  1
-
  2
AIT$MERKER-7
 70
     1
 41
0.8
  7
AIT$TSTIL
  0
ATTRIB
  8
AIT$HILFE
 10
0.8310912943111077
 20
-5.762904636920433
 30
0.0
 40
2.0
  1
-
  2
AIT$MERKER-8
 70
     1
 41
0.8
  7
AIT$TSTIL
  0
ATTRIB
  8
AIT$HILFE
 10
0.8310912943111077
 20
-2.762904636920433
 30
0.0
 40
2.0
  1
-
  2
AIT$MERKER-9
 70
     1
 41
0.8
  7
AIT$TSTIL
  0
SEQEND
  8
0
  0
ENDBLK
  8
0
  0
BLOCK
  8
0
  2
AIT$MERK
 70
    66
 10
0.0
 20
0.0
 30
0.0
  3
AIT$MERK
  0
ATTDEF
  8
AIT$HILFE
 10
0.8310912943111077
 20
-26.76290463692043
 30
0.0
 40
2.0
  1

  3
HAUPTMENš
  2
AIT$HAUTPMENUE
 70
     1
 41
0.8
  7
AIT$TSTIL
  0
ATTDEF
  8
AIT$HILFE
 10
0.8310912943111077
 20
-23.76290463692043
 30
0.0
 40
2.0
  1

  3
MAáSTABFAKTOR
  2
AIT$MASSTABSFAKTOR
 70
     1
 41
0.8
  7
AIT$TSTIL
  0
ATTDEF
  8
AIT$HILFE
 10
0.8310912943111077
 20
-20.76290463692043
 30
0.0
 40
2.0
  1

  3
LETZTE POSITION
  2
AIT$LETZTE-POSITION
 70
     1
 41
0.8
  7
AIT$TSTIL
  0
ATTDEF
  8
AIT$HILFE
 10
0.8310912943111077
 20
-17.76290463692043
 30
0.0
 40
2.0
  1

  3
BEM. NACHKOMMA
  2
AIT$MERKER-4
 70
     1
 41
0.8
  7
AIT$TSTIL
  0
ATTDEF
  8
AIT$HILFE
 10
0.8310912943111077
 20
-14.76290463692043
 30
0.0
 40
2.0
  1

  3
POS. NEU SORT. 0/1
  2
AIT$MERKER-5
 70
     1
 41
0.8
  7
AIT$TSTIL
  0
ATTDEF
  8
AIT$HILFE
 10
0.8310912943111077
 20
-11.76290463692043
 30
0.0
 40
2.0
  1

  3
ML3-STšCKLISTE 0/1
  2
AIT$MERKER-6
 70
     1
 41
0.8
  7
AIT$TSTIL
  0
ATTDEF
  8
AIT$HILFE
 10
0.8310912943111077
 20
-8.762904636920433
 30
0.0
 40
2.0
  1

  3
MERKER-7
  2
AIT$MERKER-7
 70
     1
 41
0.8
  7
AIT$TSTIL
  0
ATTDEF
  8
AIT$HILFE
 10
0.8310912943111077
 20
-5.762904636920433
 30
0.0
 40
2.0
  1

  3
MERKER-8
  2
AIT$MERKER-8
 70
     1
 41
0.8
  7
AIT$TSTIL
  0
ATTDEF
  8
AIT$HILFE
 10
0.8310912943111077
 20
-2.762904636920433
 30
0.0
 40
2.0
  1

  3
MERKER-9
  2
AIT$MERKER-9
 70
     1
 41
0.8
  7
AIT$TSTIL
  0
ENDBLK
  8
0
  0
BLOCK
  8
0
  2
AIT$INFO
 70
     2
 10
0.0
 20
0.0
 30
0.0
  3
AIT$INFO
  0
ATTDEF
  8
AIT$INFO
 10
2.212871082438304
 20
-48.80310405500295
 30
0.0
 40
3.5
  1

  3
BEZEICHNUNG1
  2
AIT$_BEZ1
 70
     1
  7
AIT$TSTIL
  0
ATTDEF
  8
AIT$INFO
 10
2.212871082438304
 20
-42.96977072166961
 30
0.0
 40
3.5
  1

  3
BEZEICHNUNG2
  2
AIT$_BEZ2
 70
     1
  7
AIT$TSTIL
  0
ATTDEF
  8
AIT$INFO
 10
2.212871082438304
 20
-37.13643738833628
 30
0.0
 40
3.5
  1

  3
LIEFERANT1
  2
AIT$_LIE1
 70
     1
  7
AIT$TSTIL
  0
ATTDEF
  8
AIT$INFO
 10
2.212871082438304
 20
-31.30310405500294
 30
0.0
 40
3.5
  1

  3
LIEFERANT2
  2
AIT$_LIE2
 70
     1
  7
AIT$TSTIL
  0
ATTDEF
  8
AIT$INFO
 10
2.212871082438304
 20
-25.46977072166961
 30
0.0
 40
3.5
  1

  3
MATERIAL1
  2
AIT$_MAT1
 70
     1
  7
AIT$TSTIL
  0
ATTDEF
  8
AIT$INFO
 10
2.212871082438304
 20
-19.63643738833627
 30
0.0
 40
3.5
  1

  3
MATERIAL2
  2
AIT$_MAT2
 70
     1
  7
AIT$TSTIL
  0
ATTDEF
  8
AIT$INFO
 10
2.212871082438304
 20
-13.80310405500294
 30
0.0
 40
3.5
  1

  3
LŽNGE
  2
AIT$_LAE
 70
     1
  7
AIT$TSTIL
  0
ATTDEF
  8
AIT$INFO
 10
2.212871082438304
 20
-7.969770721669613
 30
0.0
 40
3.5
  1

  3
BREITE
  2
AIT$_BRE
 70
     1
  7
AIT$TSTIL
  0
ATTDEF
  8
AIT$INFO
 10
2.212871082438304
 20
-2.13643738833628
 30
0.0
 40
3.5
  1

  3
SYSTEM-NUMMER
  2
AIT$_NUM
 70
     1
  7
AIT$TSTIL
  0
LINE
  8
AIT$INFO
 10
-1.275056399474328
 20
0.7361541554684589
 30
0.0
 11
1.275056399474328
 21
-0.7361541554684589
 31
0.0
  0
LINE
  8
AIT$INFO
 10
-1.275056399474328
 20
-0.7361541554684584
 30
0.0
 11
1.275056399474328
 21
0.7361541554684584
 31
0.0
  0
LINE
  8
AIT$INFO
 10
0.0
 20
1.472308310936917
 30
0.0
 11
0.0
 21
-1.472308310936917
 31
0.0
  0
ENDBLK
  8
0
  0
ENDSEC
  0
SECTION
  2
ENTITIES
  0
POINT
  8
ITEM_HILFE
 10
92.35315668586051
 20
165.3933364556953
 30
0.0
  0
POINT
  8
ITEM_HILFE
 10
92.35315668586051
 20
245.3933364556934
 30
0.0
  0
ARC
  8
ITEM_50
 10
79.65315668585904
 20
233.093336455696
 30
0.0
 40
0.2
 50
270.0
 51
0.0000000000004796
  0
ARC
  8
ITEM_50
 10
79.65315668585915
 20
177.6933364556959
 30
0.0
 40
0.2
 50
359.9999999999995
 51
90.00000000000062
  0
LINE
  8
ITEM_50
 10
79.85315668585897
 20
233.093336455696
 30
0.0
 11
79.85315668585897
 21
240.1933364557025
 31
0.0
  0
LINE
  8
ITEM_50
 10
79.65315668585915
 20
177.8933364556959
 30
0.0
 11
78.55315668585492
 21
177.8933364556959
 31
0.0
  0
LINE
  8
ITEM_50
 10
79.8531566858592
 20
177.6933364556959
 30
0.0
 11
79.85315668585909
 21
170.5933364556862
 31
0.0
  0
LINE
  8
ITEM_50
 10
78.35315668585545
 20
230.8933364557075
 30
0.0
 11
78.35315668585545
 21
232.693336455696
 31
0.0
  0
LINE
  8
ITEM_50
 10
72.85315668586204
 20
229.3933364557046
 30
0.0
 11
72.85315668586272
 21
221.3933364557086
 31
0.0
  0
LINE
  8
ITEM_50
 10
72.85315668586272
 20
221.3933364557086
 30
0.0
 11
72.85315668586284
 21
220.8933364557024
 31
0.0
  0
LINE
  8
ITEM_50
 10
78.35315668585533
 20
219.8933364557129
 30
0.0
 11
78.35315668585545
 21
230.8933364557075
 31
0.0
  0
LINE
  8
ITEM_50
 10
78.35315668585499
 20
190.8933364556754
 30
0.0
 11
78.35315668585533
 21
219.8933364557129
 31
0.0
  0
LINE
  8
ITEM_50
 10
72.85315668586284
 20
189.3933364556801
 30
0.0
 11
72.85315668586284
 21
189.8933364556863
 31
0.0
  0
LINE
  8
ITEM_50
 10
78.35315668585488
 20
179.8933364556817
 30
0.0
 11
78.35315668585499
 21
190.8933364556754
 31
0.0
  0
LINE
  8
ITEM_50
 10
72.85315668586216
 20
181.3933364556841
 30
0.0
 11
72.85315668586284
 21
189.3933364556801
 31
0.0
  0
ARC
  8
ITEM_50
 10
72.65315668586325
 20
215.5933364556924
 30
0.0
 40
0.2
 50
269.9999999997394
 51
0.0000000000047162
  0
ARC
  8
ITEM_50
 10
72.65315668586336
 20
195.1933364556958
 30
0.0
 40
0.2
 50
359.9999999999952
 51
89.99999999995658
  0
ARC
  8
ITEM_50
 10
78.55315668585549
 20
232.693336455696
 30
0.0
 40
0.2
 50
90.0
 51
179.9999999999994
  0
ARC
  8
ITEM_50
 10
73.05315668586175
 20
234.9933364557016
 30
0.0
 40
0.2
 50
89.99999999998696
 51
180.000000000003
  0
ARC
  8
ITEM_50
 10
78.55315668585492
 20
178.093336455696
 30
0.0
 40
0.2
 50
179.9999999999993
 51
270.0
  0
ARC
  8
ITEM_50
 10
73.05315668586186
 20
175.793336455687
 30
0.0
 40
0.2
 50
179.9999999999969
 51
270.0000000000128
  0
LINE
  8
ITEM_50
 10
78.55315668585549
 20
232.8933364556959
 30
0.0
 11
79.65315668585904
 21
232.8933364556959
 31
0.0
  0
LINE
  8
ITEM_50
 10
78.35315668585488
 20
178.093336455696
 30
0.0
 11
78.35315668585488
 21
179.8933364556817
 31
0.0
  0
ARC
  8
ITEM_50
 10
79.65315668585893
 20
240.1933364557025
 30
0.0
 40
0.2
 50
0.0000000000003197
 51
90.00000000000225
  0
ARC
  8
ITEM_50
 10
79.65315668585915
 20
170.5933364556862
 30
0.0
 40
0.2
 50
269.999999999998
 51
359.9999999999997
  0
LINE
  8
ITEM_50
 10
72.65315668586234
 20
215.3933364556924
 30
0.0
 11
72.55315668586402
 21
215.3933364556929
 31
0.0
  0
ARC
  8
ITEM_50
 10
72.55315668586402
 20
215.1933364556928
 30
0.0
 40
0.2
 50
90.00000000004365
 51
180.0000000000008
  0
LINE
  8
ITEM_50
 10
72.35315668586397
 20
215.1933364556928
 30
0.0
 11
72.3531566858642
 21
205.3933364556943
 31
0.0
  0
LINE
  8
ITEM_50
 10
72.65315668586166
 20
215.3933364556931
 30
0.0
 11
72.55315668586379
 21
215.393336455693
 31
0.0
  0
LINE
  8
ITEM_50
 10
72.85315668586181
 20
234.9933364557016
 30
0.0
 11
72.85315668586204
 21
229.8933364557086
 31
0.0
  0
LINE
  8
ITEM_50
 10
77.05315668585902
 20
240.3933364557024
 30
0.0
 11
79.65315668585893
 21
240.3933364557025
 31
0.0
  0
LINE
  8
ITEM_50
 10
72.85315668586204
 20
229.8933364557086
 30
0.0
 11
72.85315668586204
 21
229.3933364557086
 31
0.0
  0
LINE
  8
ITEM_50
 10
72.85315668586284
 20
220.8933364557024
 30
0.0
 11
72.85315668586329
 21
215.5933364556925
 31
0.0
  0
LINE
  8
ITEM_50
 10
73.05315668586186
 20
235.1933364557016
 30
0.0
 11
75.85315668585897
 21
235.193336455701
 31
0.0
  0
LINE
  8
ITEM_50
 10
76.85315668585909
 20
240.1933364557024
 30
0.0
 11
76.85315668585909
 21
237.3586945608136
 31
0.0
  0
ARC
  8
ITEM_50
 10
77.05315668585902
 20
240.1933364557024
 30
0.0
 40
0.2
 50
90.00000000000238
 51
180.0000000000018
  0
ARC
  8
ITEM_50
 10
75.8531566858592
 20
236.193336455701
 30
0.0
 40
1.0
 50
269.9999999999876
 51
0.0000000000019185
  0
LINE
  8
ITEM_50
 10
76.85315668585909
 20
237.3586945608136
 30
0.0
 11
76.8531566858592
 21
236.1933364557011
 31
0.0
  0
LINE
  8
ITEM_50
 10
76.8531566858592
 20
173.4279783505751
 30
0.0
 11
76.85315668585931
 21
174.5933364556877
 31
0.0
  0
ARC
  8
ITEM_50
 10
75.85315668585931
 20
174.5933364556877
 30
0.0
 40
1.0
 50
359.9999999999982
 51
90.00000000001253
  0
ARC
  8
ITEM_50
 10
77.05315668585913
 20
170.5933364556863
 30
0.0
 40
0.2
 50
179.9999999999984
 51
269.9999999999977
  0
LINE
  8
ITEM_50
 10
76.8531566858592
 20
170.5933364556863
 30
0.0
 11
76.8531566858592
 21
173.4279783505751
 31
0.0
  0
LINE
  8
ITEM_50
 10
125.8711102705121
 20
235.1933364557074
 30
0.0
 11
139.3711102705011
 21
235.1933364557074
 31
0.0
  0
LINE
  8
ITEM_50
 10
125.8711102704069
 20
175.5933364557178
 30
0.0
 11
139.3711102704214
 21
175.5933364557013
 31
0.0
  0
CIRCLE
  8
ITEM_50
 10
131.8711102704382
 20
225.3933364557079
 30
0.0
 40
4.0
  0
CIRCLE
  8
ITEM_50
 10
131.8711102704134
 20
185.3933364557099
 30
0.0
 40
4.0
  0
LINE
  8
ITEM_50
 10
125.8711102704006
 20
170.3933364557181
 30
0.0
 11
125.8711102705121
 21
240.3933364557082
 31
0.0
  0
LINE
  8
ITEM_50
 10
73.05315668586197
 20
175.5933364556871
 30
0.0
 11
75.85315668585909
 21
175.5933364556877
 31
0.0
  0
LINE
  8
ITEM_50
 10
72.85315668586284
 20
189.8933364556863
 30
0.0
 11
72.85315668586341
 21
195.1933364556957
 31
0.0
  0
LINE
  8
ITEM_50
 10
72.85315668586216
 20
180.8933364556801
 30
0.0
 11
72.85315668586216
 21
181.3933364556801
 31
0.0
  0
LINE
  8
ITEM_50
 10
125.8711102704722
 20
215.3933364557092
 30
0.0
 11
139.371110270443
 21
215.3933364557129
 31
0.0
  0
LINE
  8
ITEM_50
 10
125.8711102704403
 20
195.3933364556956
 30
0.0
 11
139.3711102704457
 21
195.3933364556956
 31
0.0
  0
LINE
  8
ITEM_50
 10
77.05315668585913
 20
170.3933364556863
 30
0.0
 11
79.65315668585915
 21
170.3933364556862
 31
0.0
  0
LINE
  8
ITEM_50
 10
72.85315668586193
 20
175.793336455687
 30
0.0
 11
72.85315668586216
 21
180.8933364556801
 31
0.0
  0
LINE
  8
ITEM_50
 10
72.65315668586359
 20
195.3933364556957
 30
0.0
 11
72.55315668586402
 21
195.3933364556958
 31
0.0
  0
LINE
  8
ITEM_50
 10
125.8711102705121
 20
240.3933364557074
 30
0.0
 11
139.3711102705011
 21
240.3933364557074
 31
0.0
  0
LINE
  8
ITEM_50
 10
125.8711102704006
 20
170.3933364557178
 30
0.0
 11
139.371110270415
 21
170.3933364557013
 31
0.0
  0
LINE
  8
ITEM_50
 10
139.371110270415
 20
170.3933364557013
 30
0.0
 11
139.3711102705011
 21
240.3933364557074
 31
0.0
  0
LINE
  8
ITEM_50
 10
72.35315668586397
 20
195.5933364556959
 30
0.0
 11
72.3531566858642
 21
205.3933364556943
 31
0.0
  0
ARC
  8
ITEM_50
 10
72.55315668586402
 20
195.5933364556959
 30
0.0
 40
0.2
 50
179.9999999999993
 51
269.9999999999565
  0
INSERT
  8
0
 66
     1
  2
GENPRESE
 10
0.0
 20
0.0
 30
0.0
  0
ATTRIB
  8
0
 10
0.0
 20
0.0
 30
0.0
 40
3.5
  1
A3
  2
GEN-KO2
 70
     0
  7
GENPRESET
  0
ATTRIB
  8
0
 10
0.0
 20
-5.0
 30
0.0
 40
3.5
  1
item
  2
GEN-KO3
 70
     0
  7
GENPRESET
  0
ATTRIB
  8
0
 10
0.0
 20
-10.0
 30
0.0
 40
3.5
  1
15
  2
GENSI
 70
     0
  7
GENPRESET
  0
ATTRIB
  8
0
 10
0.0
 20
-15.0
 30
0.0
 40
3.5
  1

  2
GENSD
 70
     0
  7
GENPRESET
  0
ATTRIB
  8
0
 10
0.0679278917532429
 20
-19.93786241836124
 30
0.0
 40
3.5
  1
0
  2
GENIF
 70
     0
  7
GENPRESET
  0
ATTRIB
  8
0
 10
0.0339639458766215
 20
-24.96893120918062
 30
0.0
 40
3.5
  1
2
  2
GENPOSVAR
 70
     0
  7
GENPRESET
  0
ATTRIB
  8
0
 10
0.0339639458766215
 20
-29.96893120918062
 30
0.0
 40
3.5
  1
0
  2
GENPOSBLK
 70
     0
  7
GENPRESET
  0
ATTRIB
  8
0
 10
0.0339639458766215
 20
-34.96893120918062
 30
0.0
 40
3.5
  1
1
  2
GENPOSINC
 70
     0
  7
GENPRESET
  0
ATTRIB
  8
0
 10
0.0339639458766215
 20
-39.96893120918062
 30
0.0
 40
3.5
  1
GEN-POS
  2
GENPARPOS
 70
     0
  7
GENPRESET
  0
ATTRIB
  8
0
 10
0.0339639458766215
 20
-44.96893120918062
 30
0.0
 40
3.5
  1
GEN-SUM
  2
GENPARSUM
 70
     0
  7
GENPRESET
  0
ATTRIB
  8
0
 10
0.0339639458766215
 20
-49.96893120918062
 30
0.0
 40
3.5
  1
CANONII
  2
GENPARDRU
 70
     0
  7
GENPRESET
  0
ATTRIB
  8
0
 10
0.0339639458766215
 20
-54.96893120918062
 30
0.0
 40
3.5
  1

  2
GENSTDLG
 70
     0
  7
GENPRESET
  0
ATTRIB
  8
0
 10
0.0339639458766215
 20
-59.96893120918062
 30
0.0
 40
3.5
  1
13
  2
GENCOLBK
 70
     0
  7
GENPRESET
  0
ATTRIB
  8
0
 10
0.0339639458766215
 20
-64.96893120918062
 30
0.0
 40
3.5
  1
4
  2
GENCOLTI
 70
     0
  7
GENPRESET
  0
ATTRIB
  8
0
 10
0.0339639458766215
 20
-69.96893120918062
 30
0.0
 40
3.5
  1
2
  2
GENCOLTX
 70
     0
  7
GENPRESET
  0
ATTRIB
  8
0
 10
0.0339639458766215
 20
-74.96893120918062
 30
0.0
 40
3.5
  1
edlin
  2
GENEDITOR
 70
     0
  7
GENPRESET
  0
ATTRIB
  8
0
 10
0.0339639458766215
 20
-79.96893120918062
 30
0.0
 40
3.5
  1
M
  2
GENINCH
 70
     0
  7
GENPRESET
  0
ATTRIB
  8
0
 10
0.0339639458766215
 20
-84.96893120918062
 30
0.0
 40
3.5
  1
ISO
  2
GENDIMSTIL
 70
     0
  7
GENPRESET
  0
SEQEND
  8
0
  0
INSERT
  8
0
 66
     1
  2
AIT$MERK
 10
0.0
 20
0.0
 30
0.0
  0
ATTRIB
  8
AIT$HILFE
 10
0.8310912943111077
 20
-26.76290463692043
 30
0.0
 40
2.0
  1
genius11
  2
AIT$HAUTPMENUE
 70
     1
 41
0.8
  7
AIT$TSTIL
  0
ATTRIB
  8
AIT$HILFE
 10
0.8310912943111077
 20
-23.76290463692043
 30
0.0
 40
2.0
  1
1.0
  2
AIT$MASSTABSFAKTOR
 70
     1
 41
0.8
  7
AIT$TSTIL
  0
ATTRIB
  8
AIT$HILFE
 10
0.8310912943111077
 20
-20.76290463692043
 30
0.0
 40
2.0
  1
0
  2
AIT$LETZTE-POSITION
 70
     1
 41
0.8
  7
AIT$TSTIL
  0
ATTRIB
  8
AIT$HILFE
 10
0.8310912943111077
 20
-17.76290463692043
 30
0.0
 40
2.0
  1
0
  2
AIT$MERKER-4
 70
     1
 41
0.8
  7
AIT$TSTIL
  0
ATTRIB
  8
AIT$HILFE
 10
0.8310912943111077
 20
-14.76290463692043
 30
0.0
 40
2.0
  1
0
  2
AIT$MERKER-5
 70
     1
 41
0.8
  7
AIT$TSTIL
  0
ATTRIB
  8
AIT$HILFE
 10
0.8310912943111077
 20
-11.76290463692043
 30
0.0
 40
2.0
  1
1
  2
AIT$MERKER-6
 70
     1
 41
0.8
  7
AIT$TSTIL
  0
ATTRIB
  8
AIT$HILFE
 10
0.8310912943111077
 20
-8.762904636920433
 30
0.0
 40
2.0
  1
-
  2
AIT$MERKER-7
 70
     1
 41
0.8
  7
AIT$TSTIL
  0
ATTRIB
  8
AIT$HILFE
 10
0.8310912943111077
 20
-5.762904636920433
 30
0.0
 40
2.0
  1
-
  2
AIT$MERKER-8
 70
     1
 41
0.8
  7
AIT$TSTIL
  0
ATTRIB
  8
AIT$HILFE
 10
0.8310912943111077
 20
-2.762904636920433
 30
0.0
 40
2.0
  1
-
  2
AIT$MERKER-9
 70
     1
 41
0.8
  7
AIT$TSTIL
  0
SEQEND
  8
0
  0
ENDSEC
  0
EOF
